Make your own free website on Tripod.com








rock urbano
Tablaturas













Home

dEvAsTaTiOn ToUr 2004 | Rockanroleros | Rock Pictures | Nuevas Cintas | Recomendaciones | Promociones | Links | Tablaturas | Contacto con la banda





Aqui tiene la banda que le da a la Lira unas tablaturas pa que se rifen chido en los peceros, micros, en el metro o con sus valedores, chidisimo por esa banda.
















esta rola que es muy famosa por la banda urbanera:

historia de un minuto- D. Garnica (interpuesto)

Sol,Mim,Do,Re

Sol Mim
Ella convirtio la noche en un poema de amor
Do Re
ella prometio mil dias de alegria solo a el
Sol Mim
luego el tiempo hablo, no todo fue tan bello no,no,no
Do Re
ella se marcho dejandole una carta en el buro

"y la carta decia"

Sol Sol Fa# Mim Do
Estoy harta de todo de tanto rodar
Re
no es culpa tuya es solo mi forma de ser, pero
Sol Mim
esta noche no, no pienso ir a buscarla no,no,no
Do Re
esta noche no, no quiero ni mirarla otra vez.

Se silba con los acordes

Sol, Mim, Do, Re

y se repite la cancion.
------------------------------------------------------------
una rola pesadona:

el infierno de dante- Lorenzo Partida (transmetal)




tune 4 steps down
C
G
A#
D#
F
G

intro
5 times
C ------------------------------------------------|
G ------------------------------------------------|
A#------------------------------------------------|
D#------------------------------------------------|
F -4-4-4-4-4-4--8-8-8-8-8-8--9-9-9-9-9--3-3-3-3-3-|
G -2-2-2-2-2-2--6-6-6-6-6-6--7-7-7-7-7--1-1-1-1-1-|


----------------------------------------------------|
----------------------------------------------------|
----------------------------------------------------|
----------------------------------------------------|
-4--4-4-4-4--4--4-4-4-4-----------------------------|
-2--2-2-2-2--2--2-2-2-2--5-5-5--4-4-4--2-2-2--1-1-1-|

verse
----------------------------------------------------|
----------------------------------------------------|
----------------------------------------------------|
----------------------------------------------------|
-4--4-4-4-4--4--4-4-4-4-----------------------------|
-2--2-2-2-2--2--2-2-2-2--5-5-5--4-4-4--2-2-2--1-1-1-|

Chorus
-------------------------|
-------------------------|
-------------------------|
-------------------------|
-4-5-4-XXXX-4-5-4--8-9-9-|
-2-3-2-XXXX-2-3-2--6-7-7-|


e ----------------------------------------------------|
B ----------------------------------------------------|
G ----------------------------------------------------|
D ----------------------------------------------------|
A -4--4-4-4-4--4--4-4-4-4-----------------------------|
E -2--2-2-2-2--2--2-2-2-2--5-5-5--4-4-4--2-2-2--1-1-1-|

e -------------------------|
B -------------------------|
G -------------------------|
D -------------------------|
A -4-5-4-XXXX-4-5-4--8-9-9-|
E -2-3-2-XXXX-2-3-2--6-7-7-|

e ---------------------------|
B ---------------------------|
G ---------------------------|
D ---------------------------|
A ---------------------------|
E -8h9p8h9p8h9p8h9p8h9p9h8p9-|


e --------------------------------------------------------------------|
B --------------------------------------------------------------------|
G --------------------------------------------------------------------|
D --------------------------------------------------------------------|
A -5-4---------------5-4--------------5-4--------------5-4----4-5---8-|
E -3-2--0-0-0-0-0-0--3-2-0-0-0-0-0-0--3-2-0-0-0-0-0-0--3-2-0--2-3-0-6-|

e -----------------------------|
B -----------------------------|
G -----------------------------|
D -----------------------------|
A ---8-7---7-6---6-5---5-4-----|
E -9-----8-----7-----6-----6-7-|

e --------------------------------|
B --------------------------------|
G --------------------------------|
D ----10-9----9-8---8-7---7-6-----|
A -11------10-----9-----8-----8-9-|
E --------------------------------|

e --------------------------------------------------------------------|
B --------------------------------------------------------------------|
G --------------------------------------------------------------------|
D --------------------------------------------------------------------|
A -5-4---------------5-4--------------5-4--------------5-4----4-5---8-|
E -3-2--0-0-0-0-0-0--3-2-0-0-0-0-0-0--3-2-0-0-0-0-0-0--3-2-0--2-3-0-6-|

e -------------------------|
B -------------------------|
G -------------------------|
D -------------------------|
A -4-5-4-XXXX-4-5-4--8-9-9-|
E -2-3-2-XXXX-2-3-2--6-7-7-|

solo
e-------------------------------------------------------------------------------------|
B-------------------------------------------------9h12p9h12p9-------------------------|
G-------------------------------------9h11p9h11p9-------------9h11p9h11p9-------------|
D-------------------------9h11p9h11p9-------------------------------------9h11p9h11p9-|
A--7h9p7h9p7-9h11p9h11p9--------------------------------------------------------------|
E-------------------------------------------------------------------------------------|

e----------------|
B----------------|
G----------------|
D----------------|
A-9h11p9h11p9----|
E-------------11-|

e-------------------------------------------------------------------------------------|
B-------------------------------------------------9h12p9h12p9-------------------------|
G-------------------------------------9h11p9h11p9-------------9h11p9h11p9-------------|
D-------------------------9h11p9h11p9-------------------------------------9h11p9h11p9-|
A--7h9p7h9p7-9h11p9h11p9--------------------------------------------------------------|
E-------------------------------------------------------------------------------------|

e------------------------------------------------------------------------------------------|
B----------------------------14AH--15AHb~~~--14AH------------------------------------------|
G------------------14AH~~~~~-----------------------15AH-14AH------14AH---------------------|
D------------------------------------------------------------15AH------15AH-14AH-15AH-14AH-|
A-9h11p9h11p9------------------------------------------------------------------------------|
E-------------11---------------------------------------------------------------------------|
bar///////// bar/////////
e----------------------------------------------------------------------------------------|
B----------------------------------------------------------------------------------------|
G--------12h14p12hp14p12-12h14p12hp14p12--12b-----------12b------------9h11--9h11p9----9-|
D-----------------------------------------------------------------------------------11---|
A-15AH-----------------------------------------------------------------------------------|
E----------------------------------------------------------------------------------------|

--------------------repeat----------------------
e-----------------------------|-14h17p14h16p14----14h17p14h16p14----14h17p14h16p14----|
B-----------------------------|----------------17----------------17----------------17-|
G--------------------------9--|-------------------------------------------------------|
D-11p9h11p9----9----9h11p9----|-------------------------------------------------------|
A-----------11---11-----------|-------------------------------------------------------|
E-----------------------------|-------------------------------------------------------|

-----------------repeat----------------------------------
e---15h18p15h17p18----15h18p15h17p18----15h18p15h17p18----|-------------------------------|
B------------------18----------------18----------------18-|-18-15h18p15h16p15h16p15-------|
G---------------------------------------------------------|-------------------------17~~~-|
D---------------------------------------------------------|-------------------------------|
A---------------------------------------------------------|-------------------------------|
E---------------------------------------------------------|-------------------------------|

e-15AHb--14h17p14h17p14-------------------------------------------------------------------|
B-----------------------17p14h16p14------------------------------------------------15AH~~-|
G-----------------------------------17b/---14h16p14---------------------------------------|
D---------------------------------------------------16-14-16-14---------------------------|
A---------------------------------------------------------------16-14-16-14---------------|
E----------------------------------------------------------------------------17/----------|

e ----------------------------------------------------|
B ----------------------------------------------------|
G ----------------------------------------------------|
D ----------------------------------------------------|
A -4--4-4-4-4--4--4-4-4-4-----------------------------|
E -2--2-2-2-2--2--2-2-2-2--5-5-5--4-4-4--2-2-2--1-1-1-|

e ------------------------------------------------------------------------------------|
B ------------------------------------------------------------------------------------|
G ------------------------------------------------------------------------------------|
D ------------------------------------------------------------------------------------|
A ------------------------------------------------------------------------------------|
E -5-5-5--4-4-4--2-2-2--1-1-1--5-5-5--4-4-4--2-2-2--1-1-1--5-5-5--4-4-4--2-2-2--1-1-1-|

e ---|
B ---|
G ---|
D ---|
A -4-|
E -2-|
------------------------------------------------------------
algo chido tambien:

ha vuelto ya- Edgar Poo (brebaje extraño)

C
ha vuelto ya-a
Am
aquel amo-o-or
F
que un dia se fue-e
G
sin decirme adió-os

C
ha vuelto ya-a
Am
sola y muy triste-e
F
y en sus ojos reflejaba
G G-F# -F
una pena y un gran dolo-or


y si yo la vuelvo
G F
a aceptar
G
y ella me vuelve a engaña-ar

C
y que voy a hacer
Am
si la sigo queriendo como es

F
y que voy a hacer

si me esta pidiendo
G G
que la vuelva a querer

C
ha vuelto ya-a
Am
arrepentida-a-a
F
y diciéndome perdona, amor mío
G
ya no lo vuelvo a hacer

C
ha vuelto ya-a
Am
sola y herida-a-a
F
y te juro amigo mío
G G-F# -F
que yo ya no se que hacer


y si yo la vuelvo
G F
a aceptar
G
y ella me vuelve a engaña-ar

C
y que voy a hacer
Am
si la sigo queriendo como es

F
y que voy a hacer

si me esta pidiendo
G
que la vuelva a querer.
------------------------------------------------------------
algo del novio de mexico:

Vaquero Rockanrolero- Carlos Cesar Sanchez (Charlie Monttana)

INTRO (TAMBIEN SE TOCA EN MEDIO DE LA ROLA):

Arreglo de acordeóforo a guitáfara, en español de acordeón a lira:

E-------------------------------------------
A-------------------------------------------
D-------------------------------------------
G----------------------------------3-1------
B--2-2-2-0-4-2-----2-2-2-0-4-2-2-2-----2----
E-------------------------------------------

Después:


E-------------------------------------------
A-------------------------------------------
D------------------------------------6-4---
G--4-4-4-1-6-4-----4-4-4-1-6-4-4-4-2-----4
B-------------------------------------------
E-------------------------------------------

A
Dices que eres la bandota
E
que eres bien rocanrolero
D E A
y se te nota con tremenda matota


Todo lleno de tatuajes
E
luego hasta traes aretes
D E A
y tu camiseta de metallica


Quien te viera pensaría
E
que eres una estrella de rock
D E A
pero nadie imaginaba la neta

REQUINTO 2:

E-------------------------------------
A-------------------------------------
D-------------------------------------
G-----------------------------4-----4-
B-3-4-5-----5-----5-----5-5-2---5-2---
E-------5-2---5-2---5-2---------------


E--------------------------
A--------------------------
D--------------------------
G-------------2------------
B-3-5-5-3-2-0--------------
E--------------------------

El requinto anterior se toca dos veces.

A
Te fuiste a ver a los Tigres
E
a Límite y a los Tucanes
D E A
vestido de cuero negro para apantallar



Dabas el taconazo
E
con el puro nixtamal
D E A
bailabas a sombrerazos con el Piporro

D A
Siempre das el Jacintazo
D A
siempre das el Piporrazo
E D A
eres la pura milpa real

D A
Eres el Vaquero de la Malboro
D A
el Vaquero Rocanrolero
E D A
Oye Jacinto Jacinto Metalero.


SE REPITE REQUINTO QUE SE TOCA EN LA INTRODUCCIÓN.

Siempre..............

NOTA: Si no te gustan los requintos puedes transportarlos,
ya sea en el mismo tono o en otro.
------------------------------------------------------------
algo de lo nuevo del señoron Toño:

Piensa en mi- Toño Lira (liran roll)

Intro:G-C-G-C
G
Cierra los ojos
C
piensa en mi
G
como lo hago ahora
C G-C-D
yo por ti.

G
Dame tus manos
C
ven hacia mi
G
quiero estar cerca
C
muy cerca de ti.

Intermedio:
1------------------------
2------------------------
3-0----------------------
4--4-2-0-2--0-2-4--2/4-0-
5------------------------
6------------------------

G
Cierra los ojos
C
piensa en mi
G
como lo hago ahora
C G-C-D.
yo por ti.

G
Quiero sentirte
C
amar tu piel
G
morder tus labios
C
al amanecer.

(Intermedio)

C D
Te amo tanto
Bm
que en mi sangre
E
ruedas tu.

C D
Te amo tanto
Bm
que en mi sangre
E C-D
vives tu.

G
Cierra los ojos...

G
No quiero perderte
C
pues solo en ti
G
encuentro alivio
C
para no morir.

(Intermedio)

C D
Te amo tanto
Bm
que en mi sangre
E
ruedas tu.

C D
Te amo tanto
Bm
que en mi sangre
E C-D
vives tu.

G
Cierra los ojos...
------------------------------------------------------------

POR LO PRONTO PONDREMOS ESTAS, EN UNA SEMANA AGREGAREMOS MAS.